ISO-10303-21;
HEADER;
FILE_DESCRIPTION (( 'STEP AP203' ),
    '1' );
FILE_NAME ('Q-DWWP-R42-20-1064-SH-M.STEP',
    '2020-12-22T08:54:34',
    ( '' ),
    ( '' ),
    'SwSTEP 2.0',
    'SolidWorks 2020',
    '' );
FILE_SCHEMA (( 'CONFIG_CONTROL_DESIGN' ));
ENDSEC;

DATA;
#1 =( NAMED_UNIT ( * ) PLANE_ANGLE_UNIT ( ) SI_UNIT ( $, .RADIAN. ) );
#2 = DIRECTION ( 'NONE',  ( -1.000000000000000000, -0.000000000000000000, -0.000000000000000000 ) ) ;
#3 = VECTOR ( 'NONE', #272, 1000.000000000000000 ) ;
#4 = CALENDAR_DATE ( 2020, 22, 12 ) ;
#5 = EDGE_CURVE ( 'NONE', #8, #113, #334, .T. ) ;
#6 = CARTESIAN_POINT ( 'NONE',  ( 0.5000000000000002220, 3.000000000000000000, 0.000000000000000000 ) ) ;
#7 = CARTESIAN_POINT ( 'NONE',  ( 1.500000000000000000, 0.000000000000000000, 0.000000000000000000 ) ) ;
#8 = VERTEX_POINT ( 'NONE', #97 ) ;
#9 = AXIS2_PLACEMENT_3D ( 'NONE', #106, #205, #208 ) ;
#10 = ORIENTED_EDGE ( 'NONE', *, *, #239, .T. ) ;
#11 = EDGE_CURVE ( 'NONE', #36, #17, #195, .T. ) ;
#12 = ORIENTED_EDGE ( 'NONE', *, *, #145, .T. ) ;
#13 = DIRECTION ( 'NONE',  ( 0.000000000000000000, 0.000000000000000000, 1.000000000000000000 ) ) ;
#14 = ORIENTED_EDGE ( 'NONE', *, *, #5, .F. ) ;
#15 = LOCAL_TIME ( 16, 54, 34.00000000000000000, #176 ) ;
#16 = DIRECTION ( 'NONE',  ( -1.000000000000000000, -0.000000000000000000, -0.000000000000000000 ) ) ;
#17 = VERTEX_POINT ( 'NONE', #259 ) ;
#18 = EDGE_CURVE ( 'NONE', #161, #135, #108, .T. ) ;
#19 = LOCAL_TIME ( 16, 54, 34.00000000000000000, #319 ) ;
#20 = PERSON_AND_ORGANIZATION_ROLE ( 'design_supplier' ) ;
#21 = CC_DESIGN_PERSON_AND_ORGANIZATION_ASSIGNMENT ( #307, #98, ( #154 ) ) ;
#22 = DIRECTION ( 'NONE',  ( -1.000000000000000000, -0.000000000000000000, -0.000000000000000000 ) ) ;
#23 = DATE_TIME_ROLE ( 'creation_date' ) ;
#24 = CARTESIAN_POINT ( 'NONE',  ( -1.500000000000000000, 0.000000000000000000, 5.000000000000000000 ) ) ;
#25 = APPROVAL_ROLE ( '' ) ;
#26 = ADVANCED_FACE ( 'NONE', ( #173 ), #254, .F. ) ;
#27 = FACE_OUTER_BOUND ( 'NONE', #110, .T. ) ;
#28 = DATE_AND_TIME ( #4, #116 ) ;
#29 = EDGE_CURVE ( 'NONE', #135, #161, #181, .T. ) ;
#30 = AXIS2_PLACEMENT_3D ( 'NONE', #144, #50, #306 ) ;
#31 = DIRECTION ( 'NONE',  ( -1.000000000000000000, 0.000000000000000000, -0.000000000000000000 ) ) ;
#32 = DIRECTION ( 'NONE',  ( -0.000000000000000000, 0.000000000000000000, 1.000000000000000000 ) ) ;
#33 = DIRECTION ( 'NONE',  ( -1.000000000000000000, -0.000000000000000000, -0.000000000000000000 ) ) ;
#34 = EDGE_LOOP ( 'NONE', ( #242, #236, #183, #38 ) ) ;
#35 = EDGE_CURVE ( 'NONE', #158, #17, #70, .T. ) ;
#36 = VERTEX_POINT ( 'NONE', #71 ) ;
#37 = CIRCLE ( 'NONE', #284, 5.000000000000000000 ) ;
#38 = ORIENTED_EDGE ( 'NONE', *, *, #145, .F. ) ;
#39 = ORIENTED_EDGE ( 'NONE', *, *, #18, .F. ) ;
#40 = ADVANCED_FACE ( 'NONE', ( #279, #27 ), #101, .F. ) ;
#41 = FACE_OUTER_BOUND ( 'NONE', #187, .T. ) ;
#42 = EDGE_LOOP ( 'NONE', ( #185, #39, #12, #133 ) ) ;
#43 = AXIS2_PLACEMENT_3D ( 'NONE', #151, #153, #263 ) ;
#44 = DIRECTION ( 'NONE',  ( 0.000000000000000000, 0.000000000000000000, -1.000000000000000000 ) ) ;
#45 = ADVANCED_FACE ( 'NONE', ( #308 ), #285, .T. ) ;
#46 = CC_DESIGN_PERSON_AND_ORGANIZATION_ASSIGNMENT ( #304, #120, ( #114 ) ) ;
#47 = CIRCLE ( 'NONE', #196, 3.000000000000000000 ) ;
#48 = CARTESIAN_POINT ( 'NONE',  ( -0.5000000000000002220, 0.000000000000000000, 0.000000000000000000 ) ) ;
#49 = DIRECTION ( 'NONE',  ( 0.000000000000000000, 0.000000000000000000, 1.000000000000000000 ) ) ;
#50 = DIRECTION ( 'NONE',  ( -1.000000000000000000, -0.000000000000000000, -0.000000000000000000 ) ) ;
#51 = CIRCLE ( 'NONE', #315, 5.000000000000000000 ) ;
#52 = CARTESIAN_POINT ( 'NONE',  ( 1.500000000000000444, 0.000000000000000000, 0.000000000000000000 ) ) ;
#53 = MECHANICAL_CONTEXT ( 'NONE', #77, 'mechanical' ) ;
#54 = CYLINDRICAL_SURFACE ( 'NONE', #231, 3.000000000000000000 ) ;
#55 = PRODUCT_RELATED_PRODUCT_CATEGORY ( 'detail', '', ( #240 ) ) ;
#56 = AXIS2_PLACEMENT_3D ( 'NONE', #121, #257, #283 ) ;
#57 = CARTESIAN_POINT ( 'NONE',  ( 0.000000000000000000, 0.000000000000000000, 0.000000000000000000 ) ) ;
#58 = EDGE_LOOP ( 'NONE', ( #132, #281, #265, #81 ) ) ;
#59 = EDGE_LOOP ( 'NONE', ( #85, #210, #227, #137 ) ) ;
#60 = APPROVAL_PERSON_ORGANIZATION ( #251, #125, #25 ) ;
#61 = ORIENTED_EDGE ( 'NONE', *, *, #141, .F. ) ;
#62 = CARTESIAN_POINT ( 'NONE',  ( -1.614212418857619014, 0.000000000000000000, 3.000000000000000000 ) ) ;
#63 = ORIENTED_EDGE ( 'NONE', *, *, #84, .F. ) ;
#64 = DIRECTION ( 'NONE',  ( 1.000000000000000000, 0.000000000000000000, 0.000000000000000000 ) ) ;
#65 = ORIENTED_EDGE ( 'NONE', *, *, #312, .F. ) ;
#66 = CIRCLE ( 'NONE', #276, 3.000000000000000000 ) ;
#67 = EDGE_CURVE ( 'NONE', #322, #189, #246, .T. ) ;
#68 = DIRECTION ( 'NONE',  ( -1.000000000000000000, -0.000000000000000000, -0.000000000000000000 ) ) ;
#69 = SECURITY_CLASSIFICATION_LEVEL ( 'unclassified' ) ;
#70 = CIRCLE ( 'NONE', #30, 3.000000000000000000 ) ;
#71 = CARTESIAN_POINT ( 'NONE',  ( -0.5000000000000002220, 0.000000000000000000, 3.000000000000000000 ) ) ;
#72 = DATE_TIME_ROLE ( 'classification_date' ) ;
#73 = CARTESIAN_POINT ( 'NONE',  ( 1.500000000000000444, 3.673940397442059868E-16, -3.000000000000000000 ) ) ;
#74 = DIRECTION ( 'NONE',  ( -1.000000000000000000, -0.000000000000000000, -0.000000000000000000 ) ) ;
#75 = VECTOR ( 'NONE', #332, 1000.000000000000000 ) ;
#76 = DIRECTION ( 'NONE',  ( -1.000000000000000000, -0.000000000000000000, -0.000000000000000000 ) ) ;
#77 = APPLICATION_CONTEXT ( 'configuration controlled 3d designs of mechanical parts and assemblies' ) ;
#78 = CARTESIAN_POINT ( 'NONE',  ( 1.500000000000000000, 6.123233995736766282E-16, -5.000000000000000000 ) ) ;
#79 = AXIS2_PLACEMENT_3D ( 'NONE', #7, #76, #291 ) ;
#80 =( NAMED_UNIT ( * ) SI_UNIT ( $, .STERADIAN. ) SOLID_ANGLE_UNIT ( ) );
#81 = ORIENTED_EDGE ( 'NONE', *, *, #11, .F. ) ;
#82 = ORIENTED_EDGE ( 'NONE', *, *, #278, .F. ) ;
#83 = ORIENTED_EDGE ( 'NONE', *, *, #102, .T. ) ;
#84 = EDGE_CURVE ( 'NONE', #211, #36, #148, .T. ) ;
#85 = ORIENTED_EDGE ( 'NONE', *, *, #253, .F. ) ;
#86 = AXIS2_PLACEMENT_3D ( 'NONE', #202, #93, #122 ) ;
#87 = LINE ( 'NONE', #297, #3 ) ;
#88 = ORIENTED_EDGE ( 'NONE', *, *, #29, .T. ) ;
#89 = CARTESIAN_POINT ( 'NONE',  ( -0.5000000000000002220, 3.000000000000000000, 0.000000000000000000 ) ) ;
#90 = AXIS2_PLACEMENT_3D ( 'NONE', #57, #104, #156 ) ;
#91 = ADVANCED_FACE ( 'NONE', ( #200 ), #311, .F. ) ;
#92 = APPROVAL_PERSON_ORGANIZATION ( #249, #207, #222 ) ;
#93 = DIRECTION ( 'NONE',  ( 1.000000000000000000, 0.000000000000000000, 0.000000000000000000 ) ) ;
#94 = ADVANCED_BREP_SHAPE_REPRESENTATION ( 'Q-DWWP-R42-20-1064-SH-M', ( #139, #90 ), #255 ) ;
#95 = DIRECTION ( 'NONE',  ( -1.000000000000000000, -0.000000000000000000, -0.000000000000000000 ) ) ;
#96 = AXIS2_PLACEMENT_3D ( 'NONE', #99, #2, #175 ) ;
#97 = CARTESIAN_POINT ( 'NONE',  ( 1.500000000000000000, 0.000000000000000000, 5.000000000000000000 ) ) ;
#98 = PERSON_AND_ORGANIZATION_ROLE ( 'classification_officer' ) ;
#99 = CARTESIAN_POINT ( 'NONE',  ( 1.500000000000000444, 0.000000000000000000, 0.000000000000000000 ) ) ;
#100 = FACE_BOUND ( 'NONE', #166, .T. ) ;
#101 = PLANE ( 'NONE',  #86 ) ;
#102 = EDGE_CURVE ( 'NONE', #17, #158, #331, .T. ) ;
#103 = AXIS2_PLACEMENT_3D ( 'NONE', #89, #190, #44 ) ;
#104 = DIRECTION ( 'NONE',  ( 0.000000000000000000, 0.000000000000000000, 1.000000000000000000 ) ) ;
#105 = CARTESIAN_POINT ( 'NONE',  ( 1.500000000000000000, 0.000000000000000000, 0.000000000000000000 ) ) ;
#106 = CARTESIAN_POINT ( 'NONE',  ( -1.500000000000000000, 0.000000000000000000, 0.000000000000000000 ) ) ;
#107 = FACE_OUTER_BOUND ( 'NONE', #109, .T. ) ;
#108 = CIRCLE ( 'NONE', #213, 3.000000000000000000 ) ;
#109 = EDGE_LOOP ( 'NONE', ( #163, #296, #293, #83 ) ) ;
#110 = EDGE_LOOP ( 'NONE', ( #10, #111 ) ) ;
#111 = ORIENTED_EDGE ( 'NONE', *, *, #248, .T. ) ;
#112 = PLANE ( 'NONE',  #103 ) ;
#113 = VERTEX_POINT ( 'NONE', #24 ) ;
#114 = PRODUCT_DEFINITION_FORMATION_WITH_SPECIFIED_SOURCE ( 'ANY', '', #240, .NOT_KNOWN. ) ;
#115 = LINE ( 'NONE', #62, #131 ) ;
#116 = LOCAL_TIME ( 16, 54, 34.00000000000000000, #260 ) ;
#117 = DATE_AND_TIME ( #172, #15 ) ;
#118 = DIRECTION ( 'NONE',  ( 1.000000000000000000, 0.000000000000000000, 0.000000000000000000 ) ) ;
#119 = DIRECTION ( 'NONE',  ( 0.000000000000000000, 0.000000000000000000, 1.000000000000000000 ) ) ;
#120 = PERSON_AND_ORGANIZATION_ROLE ( 'creator' ) ;
#121 = CARTESIAN_POINT ( 'NONE',  ( 1.500000000000000222, 5.000000000000000000, 0.000000000000000000 ) ) ;
#122 = DIRECTION ( 'NONE',  ( 0.000000000000000000, 0.000000000000000000, -1.000000000000000000 ) ) ;
#123 = CARTESIAN_POINT ( 'NONE',  ( -0.5000000000000002220, 3.673940397442059868E-16, -3.000000000000000000 ) ) ;
#124 = CARTESIAN_POINT ( 'NONE',  ( -1.500000000000000000, 0.000000000000000000, 0.000000000000000000 ) ) ;
#125 = APPROVAL ( #197, 'UNSPECIFIED' ) ;
#126 = PERSON_AND_ORGANIZATION ( #155, #262 ) ;
#127 = AXIS2_PLACEMENT_3D ( 'NONE', #6, #31, #32 ) ;
#128 = DIRECTION ( 'NONE',  ( 0.000000000000000000, 0.000000000000000000, 1.000000000000000000 ) ) ;
#129 = DIRECTION ( 'NONE',  ( 0.000000000000000000, 0.000000000000000000, 1.000000000000000000 ) ) ;
#130 = ORIENTED_EDGE ( 'NONE', *, *, #278, .T. ) ;
#131 = VECTOR ( 'NONE', #167, 1000.000000000000000 ) ;
#132 = ORIENTED_EDGE ( 'NONE', *, *, #141, .T. ) ;
#133 = ORIENTED_EDGE ( 'NONE', *, *, #219, .T. ) ;
#134 = CARTESIAN_POINT ( 'NONE',  ( -1.614212418857619014, 0.000000000000000000, 0.000000000000000000 ) ) ;
#135 = VERTEX_POINT ( 'NONE', #73 ) ;
#136 = CYLINDRICAL_SURFACE ( 'NONE', #186, 3.000000000000000000 ) ;
#137 = ORIENTED_EDGE ( 'NONE', *, *, #248, .F. ) ;
#138 = FACE_OUTER_BOUND ( 'NONE', #58, .T. ) ;
#139 = MANIFOLD_SOLID_BREP ( 'Ðý×', #142 ) ;
#140 = DATE_AND_TIME ( #199, #19 ) ;
#141 = EDGE_CURVE ( 'NONE', #36, #211, #66, .T. ) ;
#142 = CLOSED_SHELL ( 'NONE', ( #45, #180, #91, #286, #26, #302, #40, #234, #204, #169 ) ) ;
#143 = APPROVAL_DATE_TIME ( #309, #207 ) ;
#144 = CARTESIAN_POINT ( 'NONE',  ( -1.500000000000000000, 0.000000000000000000, 0.000000000000000000 ) ) ;
#145 = EDGE_CURVE ( 'NONE', #161, #189, #115, .T. ) ;
#146 = CARTESIAN_POINT ( 'NONE',  ( -1.614212418857619014, 0.000000000000000000, 5.000000000000000000 ) ) ;
#147 = DIRECTION ( 'NONE',  ( 0.000000000000000000, 0.000000000000000000, -1.000000000000000000 ) ) ;
#148 = CIRCLE ( 'NONE', #168, 3.000000000000000000 ) ;
#149 = FACE_OUTER_BOUND ( 'NONE', #59, .T. ) ;
#150 = DIRECTION ( 'NONE',  ( -1.000000000000000000, -0.000000000000000000, -0.000000000000000000 ) ) ;
#151 = CARTESIAN_POINT ( 'NONE',  ( -1.614212418857619014, 0.000000000000000000, 0.000000000000000000 ) ) ;
#152 = APPROVAL_ROLE ( '' ) ;
#153 = DIRECTION ( 'NONE',  ( -1.000000000000000000, -0.000000000000000000, -0.000000000000000000 ) ) ;
#154 = SECURITY_CLASSIFICATION ( '', '', #69 ) ;
#155 = PERSON ( 'UNSPECIFIED', 'UNSPECIFIED', 'UNSPECIFIED', ('UNSPECIFIED'), ('UNSPECIFIED'), ('UNSPECIFIED') ) ;
#156 = DIRECTION ( 'NONE',  ( 1.000000000000000000, 0.000000000000000000, 0.000000000000000000 ) ) ;
#157 =( LENGTH_UNIT ( ) NAMED_UNIT ( * ) SI_UNIT ( .MILLI., .METRE. ) );
#158 = VERTEX_POINT ( 'NONE', #215 ) ;
#159 = AXIS2_PLACEMENT_3D ( 'NONE', #280, #22, #119 ) ;
#160 = EDGE_CURVE ( 'NONE', #211, #158, #300, .T. ) ;
#161 = VERTEX_POINT ( 'NONE', #275 ) ;
#162 = DESIGN_CONTEXT ( 'detailed design', #282, 'design' ) ;
#163 = ORIENTED_EDGE ( 'NONE', *, *, #160, .F. ) ;
#164 = FACE_OUTER_BOUND ( 'NONE', #324, .T. ) ;
#165 = DIRECTION ( 'NONE',  ( 0.000000000000000000, 0.000000000000000000, 1.000000000000000000 ) ) ;
#166 = EDGE_LOOP ( 'NONE', ( #247, #88 ) ) ;
#167 = DIRECTION ( 'NONE',  ( -1.000000000000000000, -0.000000000000000000, -0.000000000000000000 ) ) ;
#168 = AXIS2_PLACEMENT_3D ( 'NONE', #48, #118, #147 ) ;
#169 = ADVANCED_FACE ( 'NONE', ( #164 ), #112, .F. ) ;
#170 = CARTESIAN_POINT ( 'NONE',  ( -1.614212418857619014, 0.000000000000000000, 0.000000000000000000 ) ) ;
#171 = VECTOR ( 'NONE', #188, 1000.000000000000000 ) ;
#172 = CALENDAR_DATE ( 2020, 22, 12 ) ;
#173 = FACE_OUTER_BOUND ( 'NONE', #42, .T. ) ;
#174 = COORDINATED_UNIVERSAL_TIME_OFFSET ( 8, 0, .AHEAD. ) ;
#175 = DIRECTION ( 'NONE',  ( 0.000000000000000000, 0.000000000000000000, 1.000000000000000000 ) ) ;
#176 = COORDINATED_UNIVERSAL_TIME_OFFSET ( 8, 0, .AHEAD. ) ;
#177 = DIRECTION ( 'NONE',  ( -1.000000000000000000, -0.000000000000000000, -0.000000000000000000 ) ) ;
#178 = DIRECTION ( 'NONE',  ( -1.000000000000000000, -0.000000000000000000, -0.000000000000000000 ) ) ;
#179 = APPROVAL_STATUS ( 'not_yet_approved' ) ;
#180 = ADVANCED_FACE ( 'NONE', ( #138 ), #136, .F. ) ;
#181 = CIRCLE ( 'NONE', #96, 3.000000000000000000 ) ;
#182 = FACE_OUTER_BOUND ( 'NONE', #214, .T. ) ;
#183 = ORIENTED_EDGE ( 'NONE', *, *, #67, .T. ) ;
#184 = CC_DESIGN_PERSON_AND_ORGANIZATION_ASSIGNMENT ( #126, #206, ( #245 ) ) ;
#185 = ORIENTED_EDGE ( 'NONE', *, *, #193, .F. ) ;
#186 = AXIS2_PLACEMENT_3D ( 'NONE', #134, #241, #13 ) ;
#187 = EDGE_LOOP ( 'NONE', ( #82, #65 ) ) ;
#188 = DIRECTION ( 'NONE',  ( -1.000000000000000000, -0.000000000000000000, -0.000000000000000000 ) ) ;
#189 = VERTEX_POINT ( 'NONE', #323 ) ;
#190 = DIRECTION ( 'NONE',  ( 1.000000000000000000, 0.000000000000000000, 0.000000000000000000 ) ) ;
#191 = APPROVAL_STATUS ( 'not_yet_approved' ) ;
#192 = CALENDAR_DATE ( 2020, 22, 12 ) ;
#193 = EDGE_CURVE ( 'NONE', #135, #322, #87, .T. ) ;
#194 = SHAPE_DEFINITION_REPRESENTATION ( #326, #94 ) ;
#195 = LINE ( 'NONE', #303, #290 ) ;
#196 = AXIS2_PLACEMENT_3D ( 'NONE', #226, #177, #314 ) ;
#197 = APPROVAL_STATUS ( 'not_yet_approved' ) ;
#198 = DIRECTION ( 'NONE',  ( 0.000000000000000000, 0.000000000000000000, 1.000000000000000000 ) ) ;
#199 = CALENDAR_DATE ( 2020, 22, 12 ) ;
#200 = FACE_OUTER_BOUND ( 'NONE', #34, .T. ) ;
#201 = APPLICATION_PROTOCOL_DEFINITION ( 'international standard', 'config_control_design', 1994, #282 ) ;
#202 = CARTESIAN_POINT ( 'NONE',  ( -1.500000000000000000, 3.000000000000000000, 0.000000000000000000 ) ) ;
#203 = CC_DESIGN_APPROVAL ( #270, ( #245 ) ) ;
#204 = ADVANCED_FACE ( 'NONE', ( #41, #100 ), #310, .F. ) ;
#205 = DIRECTION ( 'NONE',  ( -1.000000000000000000, -0.000000000000000000, -0.000000000000000000 ) ) ;
#206 = PERSON_AND_ORGANIZATION_ROLE ( 'creator' ) ;
#207 = APPROVAL ( #191, 'UNSPECIFIED' ) ;
#208 = DIRECTION ( 'NONE',  ( 0.000000000000000000, 0.000000000000000000, 1.000000000000000000 ) ) ;
#209 = AXIS2_PLACEMENT_3D ( 'NONE', #256, #74, #49 ) ;
#210 = ORIENTED_EDGE ( 'NONE', *, *, #312, .T. ) ;
#211 = VERTEX_POINT ( 'NONE', #123 ) ;
#212 = ORIENTED_EDGE ( 'NONE', *, *, #102, .F. ) ;
#213 = AXIS2_PLACEMENT_3D ( 'NONE', #52, #95, #223 ) ;
#214 = EDGE_LOOP ( 'NONE', ( #237, #294 ) ) ;
#215 = CARTESIAN_POINT ( 'NONE',  ( -1.500000000000000000, 3.673940397442059868E-16, -3.000000000000000000 ) ) ;
#216 = APPROVAL_PERSON_ORGANIZATION ( #316, #270, #152 ) ;
#217 = CC_DESIGN_APPROVAL ( #207, ( #154 ) ) ;
#218 = PERSON_AND_ORGANIZATION ( #155, #262 ) ;
#219 = EDGE_CURVE ( 'NONE', #189, #322, #47, .T. ) ;
#220 = APPROVAL_DATE_TIME ( #333, #125 ) ;
#221 = DIRECTION ( 'NONE',  ( -1.000000000000000000, -0.000000000000000000, -0.000000000000000000 ) ) ;
#222 = APPROVAL_ROLE ( '' ) ;
#223 = DIRECTION ( 'NONE',  ( 0.000000000000000000, 0.000000000000000000, 1.000000000000000000 ) ) ;
#224 = CIRCLE ( 'NONE', #9, 5.000000000000000000 ) ;
#225 = COORDINATED_UNIVERSAL_TIME_OFFSET ( 8, 0, .AHEAD. ) ;
#226 = CARTESIAN_POINT ( 'NONE',  ( 0.5000000000000004441, 0.000000000000000000, 0.000000000000000000 ) ) ;
#227 = ORIENTED_EDGE ( 'NONE', *, *, #5, .T. ) ;
#228 = PERSON_AND_ORGANIZATION_ROLE ( 'design_owner' ) ;
#229 = DIRECTION ( 'NONE',  ( 0.000000000000000000, 0.000000000000000000, 1.000000000000000000 ) ) ;
#230 = APPROVAL_DATE_TIME ( #28, #270 ) ;
#231 = AXIS2_PLACEMENT_3D ( 'NONE', #258, #233, #129 ) ;
#232 = CC_DESIGN_SECURITY_CLASSIFICATION ( #154, ( #114 ) ) ;
#233 = DIRECTION ( 'NONE',  ( -1.000000000000000000, -0.000000000000000000, -0.000000000000000000 ) ) ;
#234 = ADVANCED_FACE ( 'NONE', ( #149 ), #287, .T. ) ;
#235 = PERSON_AND_ORGANIZATION ( #155, #262 ) ;
#236 = ORIENTED_EDGE ( 'NONE', *, *, #193, .T. ) ;
#237 = ORIENTED_EDGE ( 'NONE', *, *, #219, .F. ) ;
#238 = EDGE_LOOP ( 'NONE', ( #212, #301 ) ) ;
#239 = EDGE_CURVE ( 'NONE', #113, #299, #224, .T. ) ;
#240 = PRODUCT ( 'Q-DWWP-R42-20-1064-SH-M', 'Q-DWWP-R42-20-1064-SH-M', '', ( #53 ) ) ;
#241 = DIRECTION ( 'NONE',  ( -1.000000000000000000, -0.000000000000000000, -0.000000000000000000 ) ) ;
#242 = ORIENTED_EDGE ( 'NONE', *, *, #29, .F. ) ;
#243 = DIRECTION ( 'NONE',  ( 0.000000000000000000, 0.000000000000000000, -1.000000000000000000 ) ) ;
#244 = CARTESIAN_POINT ( 'NONE',  ( -1.614212418857619014, 6.123233995736766282E-16, -5.000000000000000000 ) ) ;
#245 = PRODUCT_DEFINITION ( 'UNKNOWN', '', #114, #162 ) ;
#246 = CIRCLE ( 'NONE', #159, 3.000000000000000000 ) ;
#247 = ORIENTED_EDGE ( 'NONE', *, *, #18, .T. ) ;
#248 = EDGE_CURVE ( 'NONE', #299, #113, #37, .T. ) ;
#249 = PERSON_AND_ORGANIZATION ( #155, #262 ) ;
#250 = LOCAL_TIME ( 16, 54, 34.00000000000000000, #225 ) ;
#251 = PERSON_AND_ORGANIZATION ( #155, #262 ) ;
#252 = DIRECTION ( 'NONE',  ( 0.000000000000000000, 0.000000000000000000, 1.000000000000000000 ) ) ;
#253 = EDGE_CURVE ( 'NONE', #274, #299, #273, .T. ) ;
#254 = CYLINDRICAL_SURFACE ( 'NONE', #305, 3.000000000000000000 ) ;
#255 =( GEOMETRIC_REPRESENTATION_CONTEXT ( 3 ) GLOBAL_UNCERTAINTY_ASSIGNED_CONTEXT ( ( #271 ) ) GLOBAL_UNIT_ASSIGNED_CONTEXT ( ( #157, #1, #80 ) ) REPRESENTATION_CONTEXT ( 'NONE', 'WORKASPACE' ) );
#256 = CARTESIAN_POINT ( 'NONE',  ( -1.614212418857619014, 0.000000000000000000, 0.000000000000000000 ) ) ;
#257 = DIRECTION ( 'NONE',  ( -1.000000000000000000, 0.000000000000000000, -0.000000000000000000 ) ) ;
#258 = CARTESIAN_POINT ( 'NONE',  ( -1.614212418857619014, 0.000000000000000000, 0.000000000000000000 ) ) ;
#259 = CARTESIAN_POINT ( 'NONE',  ( -1.500000000000000000, 0.000000000000000000, 3.000000000000000000 ) ) ;
#260 = COORDINATED_UNIVERSAL_TIME_OFFSET ( 8, 0, .AHEAD. ) ;
#261 = CARTESIAN_POINT ( 'NONE',  ( -1.500000000000000000, 6.123233995736766282E-16, -5.000000000000000000 ) ) ;
#262 = ORGANIZATION ( 'UNSPECIFIED', 'UNSPECIFIED', '' ) ;
#263 = DIRECTION ( 'NONE',  ( 0.000000000000000000, 0.000000000000000000, 1.000000000000000000 ) ) ;
#264 = APPLICATION_PROTOCOL_DEFINITION ( 'international standard', 'config_control_design', 1994, #77 ) ;
#265 = ORIENTED_EDGE ( 'NONE', *, *, #35, .T. ) ;
#266 = AXIS2_PLACEMENT_3D ( 'NONE', #124, #221, #229 ) ;
#267 = LOCAL_TIME ( 16, 54, 34.00000000000000000, #174 ) ;
#268 = ORIENTED_EDGE ( 'NONE', *, *, #253, .T. ) ;
#269 = ORIENTED_EDGE ( 'NONE', *, *, #239, .F. ) ;
#270 = APPROVAL ( #179, 'UNSPECIFIED' ) ;
#271 = UNCERTAINTY_MEASURE_WITH_UNIT (LENGTH_MEASURE( 1.000000000000000082E-05 ), #157, 'distance_accuracy_value', 'NONE');
#272 = DIRECTION ( 'NONE',  ( -1.000000000000000000, -0.000000000000000000, -0.000000000000000000 ) ) ;
#273 = LINE ( 'NONE', #244, #277 ) ;
#274 = VERTEX_POINT ( 'NONE', #78 ) ;
#275 = CARTESIAN_POINT ( 'NONE',  ( 1.500000000000000444, 0.000000000000000000, 3.000000000000000000 ) ) ;
#276 = AXIS2_PLACEMENT_3D ( 'NONE', #317, #64, #243 ) ;
#277 = VECTOR ( 'NONE', #16, 1000.000000000000000 ) ;
#278 = EDGE_CURVE ( 'NONE', #8, #274, #328, .T. ) ;
#279 = FACE_BOUND ( 'NONE', #238, .T. ) ;
#280 = CARTESIAN_POINT ( 'NONE',  ( 0.5000000000000004441, 0.000000000000000000, 0.000000000000000000 ) ) ;
#281 = ORIENTED_EDGE ( 'NONE', *, *, #160, .T. ) ;
#282 = APPLICATION_CONTEXT ( 'configuration controlled 3d designs of mechanical parts and assemblies' ) ;
#283 = DIRECTION ( 'NONE',  ( -0.000000000000000000, 0.000000000000000000, 1.000000000000000000 ) ) ;
#284 = AXIS2_PLACEMENT_3D ( 'NONE', #318, #298, #165 ) ;
#285 = CYLINDRICAL_SURFACE ( 'NONE', #320, 5.000000000000000000 ) ;
#286 = ADVANCED_FACE ( 'NONE', ( #182 ), #288, .F. ) ;
#287 = CYLINDRICAL_SURFACE ( 'NONE', #43, 5.000000000000000000 ) ;
#288 = PLANE ( 'NONE',  #127 ) ;
#289 = CARTESIAN_POINT ( 'NONE',  ( 0.5000000000000004441, 3.673940397442059868E-16, -3.000000000000000000 ) ) ;
#290 = VECTOR ( 'NONE', #68, 1000.000000000000000 ) ;
#291 = DIRECTION ( 'NONE',  ( 0.000000000000000000, 0.000000000000000000, 1.000000000000000000 ) ) ;
#292 = CC_DESIGN_DATE_AND_TIME_ASSIGNMENT ( #140, #23, ( #245 ) ) ;
#293 = ORIENTED_EDGE ( 'NONE', *, *, #11, .T. ) ;
#294 = ORIENTED_EDGE ( 'NONE', *, *, #67, .F. ) ;
#295 = CC_DESIGN_APPROVAL ( #125, ( #114 ) ) ;
#296 = ORIENTED_EDGE ( 'NONE', *, *, #84, .T. ) ;
#297 = CARTESIAN_POINT ( 'NONE',  ( -1.614212418857619014, 3.673940397442059868E-16, -3.000000000000000000 ) ) ;
#298 = DIRECTION ( 'NONE',  ( -1.000000000000000000, -0.000000000000000000, -0.000000000000000000 ) ) ;
#299 = VERTEX_POINT ( 'NONE', #261 ) ;
#300 = LINE ( 'NONE', #325, #171 ) ;
#301 = ORIENTED_EDGE ( 'NONE', *, *, #35, .F. ) ;
#302 = ADVANCED_FACE ( 'NONE', ( #107 ), #54, .F. ) ;
#303 = CARTESIAN_POINT ( 'NONE',  ( -1.614212418857619014, 0.000000000000000000, 3.000000000000000000 ) ) ;
#304 = PERSON_AND_ORGANIZATION ( #155, #262 ) ;
#305 = AXIS2_PLACEMENT_3D ( 'NONE', #330, #178, #252 ) ;
#306 = DIRECTION ( 'NONE',  ( 0.000000000000000000, 0.000000000000000000, 1.000000000000000000 ) ) ;
#307 = PERSON_AND_ORGANIZATION ( #155, #262 ) ;
#308 = FACE_OUTER_BOUND ( 'NONE', #321, .T. ) ;
#309 = DATE_AND_TIME ( #329, #267 ) ;
#310 = PLANE ( 'NONE',  #56 ) ;
#311 = CYLINDRICAL_SURFACE ( 'NONE', #209, 3.000000000000000000 ) ;
#312 = EDGE_CURVE ( 'NONE', #274, #8, #51, .T. ) ;
#313 = CC_DESIGN_PERSON_AND_ORGANIZATION_ASSIGNMENT ( #218, #20, ( #114 ) ) ;
#314 = DIRECTION ( 'NONE',  ( 0.000000000000000000, 0.000000000000000000, 1.000000000000000000 ) ) ;
#315 = AXIS2_PLACEMENT_3D ( 'NONE', #105, #33, #128 ) ;
#316 = PERSON_AND_ORGANIZATION ( #155, #262 ) ;
#317 = CARTESIAN_POINT ( 'NONE',  ( -0.5000000000000002220, 0.000000000000000000, 0.000000000000000000 ) ) ;
#318 = CARTESIAN_POINT ( 'NONE',  ( -1.500000000000000000, 0.000000000000000000, 0.000000000000000000 ) ) ;
#319 = COORDINATED_UNIVERSAL_TIME_OFFSET ( 8, 0, .AHEAD. ) ;
#320 = AXIS2_PLACEMENT_3D ( 'NONE', #170, #150, #198 ) ;
#321 = EDGE_LOOP ( 'NONE', ( #130, #268, #269, #14 ) ) ;
#322 = VERTEX_POINT ( 'NONE', #289 ) ;
#323 = CARTESIAN_POINT ( 'NONE',  ( 0.5000000000000004441, 0.000000000000000000, 3.000000000000000000 ) ) ;
#324 = EDGE_LOOP ( 'NONE', ( #61, #63 ) ) ;
#325 = CARTESIAN_POINT ( 'NONE',  ( -1.614212418857619014, 3.673940397442059868E-16, -3.000000000000000000 ) ) ;
#326 = PRODUCT_DEFINITION_SHAPE ( 'NONE', 'NONE',  #245 ) ;
#327 = CC_DESIGN_DATE_AND_TIME_ASSIGNMENT ( #117, #72, ( #154 ) ) ;
#328 = CIRCLE ( 'NONE', #79, 5.000000000000000000 ) ;
#329 = CALENDAR_DATE ( 2020, 22, 12 ) ;
#330 = CARTESIAN_POINT ( 'NONE',  ( -1.614212418857619014, 0.000000000000000000, 0.000000000000000000 ) ) ;
#331 = CIRCLE ( 'NONE', #266, 3.000000000000000000 ) ;
#332 = DIRECTION ( 'NONE',  ( -1.000000000000000000, -0.000000000000000000, -0.000000000000000000 ) ) ;
#333 = DATE_AND_TIME ( #192, #250 ) ;
#334 = LINE ( 'NONE', #146, #75 ) ;
#335 = CC_DESIGN_PERSON_AND_ORGANIZATION_ASSIGNMENT ( #235, #228, ( #240 ) ) ;
ENDSEC;
END-ISO-10303-21;
